Translate

Thursday, January 19, 2017

Wag Ka Nang Umiak - Ralph Jay Fingerstyle

Tuning: Standard
Capo: 1st Fret

Intro:

E|--------------------------------------------0-----1----3-----------3--|
B|-------------------------------------------------------------------0--|
G|--------0-----------0-----0--------------------0-----0----------0--0--|
D|--2--3-----------2--------2-----3--3-------------------------2-----2--|
A|--------------2--------------3----------------------------------------|
E|-----------0--------------1-----------3-------------------0-----------|


E|--3--1-----1--0-----0----------------------------3----------------|
B|------------------------3-----1---0--0h1---------------------0h1--|
G|--------0--------0---------0------------------0-----------0-------|
D|--3----------------------------------------2-----------2----------|
A|-------------------------------------0--------------0-------------|
E|--------------------3---------------------------------------------|

Verse: (coming soon...)

Pre-Chorus: (coming soon...)

Chorus: (coming soon...)

Bridge: (coming soon...)

4 comments: