Translate

Thursday, January 19, 2017

Ako Na Lang - Zia Quizon

Tuning: Standard
Capo: N/A

E|-----------------------------------------|-----------------------------------------|-
B|--5--4-----------------------------------|--4-----5--7--9--4-----------------------|-
G|--------4-----4--------4--4h6-----5h6p5--|--------------------4-----4h6-----5h6p5--|-
D|-----------6--------6--------------------|-----------------------6-----------------|-
A|-----------------------------------------|-----------------------------------------|-
E|-----------------------------------------|-----------------------------------------|-

E|-----------------------------------------|--
B|--4-----5--7--9--4-----------------------|--
G|--------------------4-----4h6-----5h6p5--|--
D|-----------------------6-----------------|--
A|-----------------------------------------|--
E|-----------------------------------------|--


E|--7--6--5--|
B|-----------|
G|-----------|
D|-----------|
A|-----------|
E|-----------|

Chords:
Emaj7 Amaj7 Am G#m7 F#m7

Intro:
Emaj7 Amaj7-Am - Emaj7 Amaj7-Am

Verse:
Emaj7 Amaj7-Am - Emaj7 Amaj7-Am - Emaj7 Amaj7-Am - Emaj7 Amaj7-Am

Pre-chorus:
G#m7 F#m7 Emaj7 F#m7 - G#m7 F#m7 Emaj7 F#m7

Chorus:
Emaj7 Amaj7 4x Emaj7 Amaj7-Am 4x

Verse:
Emaj7 Amaj7-Am - Emaj7 Amaj7-Am 2x

Pre-chorus:
G#m7 F#m7 Emaj7 F#m7 - G#m7 F#m7 Emaj7 F#m7

Chorus:
Emaj7 Amaj7 4x Emaj7 Amaj7-Am 4x Emaj7


Strumming:
D  U  (D)  U  U  U  D  U  (D)  (U)

D  D  U  (D)  (U)  D  U  U  U  D  U  (D)  (U)

No comments:

Post a Comment