Translate

Saturday, February 6, 2016

Tadhana - Up Dharma Down (TAB/Chords/Strumming)

Info:
Tuning: Standard
Capo: 2nd fret

Intro:
E|--4---------------------------------------|--
B|--5-----7-----7-----5------5-----7-----7--|--
G|--6-----4-----4-----4------4-----4-----4--|--
D|--------7-----7-----6------6-----7-----7--|--
A|--0-----0-----4-----4------0-----0-----4--|--
E|------------------------------------------|--

E|--4-----|------------|---------|------------|---
B|--5--5--T---7--7--7--T---7--7--T---5--5--5--T---
G|--6-----A---4--4--4--A---4--4--A---4--4--4--A---
D|--------P---7--7--7--P---7--7--P---6--6--6--P---
A|--0-----|---0--------|---4-----|---4--------|---
E|--------|------------|---------|------------|---

E|---------|------------|---------|------------|
B|---5--5--T---7--7--7--T---7--7--T---7--7--7--|
G|---4--4--A---4--4--4--A---4--4--A---4--4--4--|
D|---6--6--P---7--7--7--P---7--7--P---7--7--7--|
A|---0-----|---0--------|---4-----|---4--------|
E|---------|------------|---------|------------|


Verses:
E|--4-----|------------|---------|------------|--
B|--5--5--T---7--7--7--T---5--5--T---5--5--5--|--
G|--6-----A---4--4--4--A---4--4--A---4--4--4--|--  3x
D|--------P---7--7--7--P---6--6--P---6--6--6--|-- 
A|--0-----|---0--------|---4-----|---4--------|--
E|--------|------------|---------|------------|--

E|--------|------------|---------|------------|
B|--0--0--T---0--0--0--T---0--0--T---0--0--0--|
G|--2--2--A---2--2--2--A---2--2--A---2--2--2--|
D|--2--2--P---2--2--2--P---2--2--P---2--2--2--|
A|--------|------------|---0-----|---0--------|
E|--2-----|---2--------|---------|------------|


Chorus:
A5 | | Bsus4 C#m | | Bsus4 A5 | | Bsus4 C#m | | Bsus4 A5 | | Bsus4 C#m | | Bsus4 F#m7’ Asus2

Strumming:
D  D  U  U  D U  D U  D U

2 comments:

  1. Easy understand and follow when see your tabs. Keep up your guitar training. Post it continuously, guy^^
    --www.onlineguitarlab.com---

    ReplyDelete