Translate

Wednesday, January 13, 2016

Ngiti - Ronnie Liang (TAB/Chords)

Tuning: Standard
Capo: 1st fret

E|------------10---------------10--6/7-----3h5p3p2h3---|--
B|--8--10--8---------8--10--8--------------------------|--
G|-----------------------------------------------------|--
D|-----------------------------------------------------|--
A|-----------------------------------------------------|--
E|-----------------------------------------------------|--

E|----------------------------10--12--10--|
B|---5--3------8--10--12--13--------------|
G|----------------------------------------|
D|----------------------------------------|
A|----------------------------------------|

E|----------------------------------------|

E|------------10---------------10--6/7--|--
B|--8--10--8---------8--10--8-----------|--
G|--------------------------------------|--
D|--------------------------------------|--
A|--------------------------------------|--

E|--------------------------------------|--

E|-----------------------------5------------------------------------|
B|--------------------5--7------------------------------------------|
G|-----------4--5--7--------------7-----7/9--7p0--------------------|
D|--4--5--7-----------------------------------------5h7--7/9--9/12--|
A|------------------------------------------------------------------|

E|------------------------------------------------------------------|

E|--------3--------------------|
B|-----3-----3-----------3-----|
G|--0-----------------0-----0--|
D|-----------------0-----------|
A|-----------------------------|

E|-----------------------------|


Intro:
G Em7 G G

Verse:
G D Am7 G - G D Am7 G

Pre-Chorus:
F C F D

Chorus:
Cadd9 G Am7 F - Cadd9 G Am7 F D

Turn/Bridge:
G Em7 G G

Verse 2:
G D Am7 G - G D Am7 G

Pre-chorus:
F C F D D

Chorus:
Cadd9 G Am7 F - Cadd9 G Am7 F D

Cadd9 G Am7 F - Cadd9 G Am7 F F

G Em7 Am7 Cadd9 G - end


STRUMMING:

D D U D D U U D D D U

No comments:

Post a Comment