Translate

Sunday, June 7, 2015

Thinking Out Loud - TAB

Tuning: Standard
Capo: N/A

Intro:
E|--------x-------x-------x--------------|
B|--3-----T---3---T---0---T---2----------|
G|--0h2---A---2---A---0---A---2-----2h4--|
D|--0-----P-------P-------P---2--2-------|
A|--------x-------x-------x--------------|
E|--------x---2---x---3---x--------------|

G chord
E|------0-x--------0--x--|
B|---0--0-T---0----0--T--|
G|---0--0-A---0----0--A--|
D|---2--2-P---2----2--P--|
A|--------x-----------x--|
E|---0----x---0-------x--|

A chord
E|------0-x--------0--x--|
B|---2--2-T---2----2--T--|
G|---2--2-A---2----2--A--|
D|---2--2-P---2----2--P--|
A|---0----x---0-------x--|
E|--------x-----------x--|

D chord
E|---2--2-x---2----2--x--|
B|---3--3-T---3----3--T--|
G|---2--2-A---2----2--A--|
D|---0--0-P---0----0--P--|
A|--------x-----------x--|
E|--------x-----------x--|

Bm chord
E|------2-x--------2--x--|
B|---3--3-T---3----3--T--|
G|---4--4-A---4----4--A--|
D|---4--4-P---4----4--P--|
A|---2----x---2-------x--|
E|--------x-----------x--|


"We found love right where we are" rundown     
   Bm    A    G    D    G    A    D 
E|-----------------2--------------2--|
B|--3----2----0----3----0----2----3--|
G|--4----2----0----2----0----2----2--|
D|--4----2----0----0----0----2----0--|
A|--2----0-------------------0-------|
E|------------3---------3------------|

Watch the tutorial:

2 comments:

  1. bkit g chord? diba sabi mo sa video e chord?

    ReplyDelete
  2. pero go parin ako dahil magaling ka mag turo tnx

    ReplyDelete