Translate

Saturday, May 30, 2015

Bumalik Kana Sakin - Silent Sanctuary (Chords/TAB)

Tuning: Standard
Capo: N/A


Intro TAB:
E|--0--2-----0--2----0----|--0--2-----0--2----0----|--3-----2--------0--------0--------|
B|--3--3--x--3--3----3----|--3--3--x--3--3----3----|--3--x--3--3--x--2--2--x--2--2--x--|
G|--2-----x---------------|--------x---------------|--0--x--0-----x--2-----x--2-----x--|
D|--0-----x--0-------0----|--------x--0------------|-----x--------x--2-----x--2-----x--|
A|--------x---------------|--2-----x----------2----|-----x--------x--------x--------x--|
E|------------------------|------------------------|--3-----3--------------------------|

E|--0--2-----0--2----0----|--0--2-----0--2----0----|--3-----2--------0--0--0--0--0--0--0--|
B|--3--3--x--3--3----3----|--3--3--x--3--3----3----|--3--x--3--3--x--2--2--2--2--2--2--2--|
G|--2-----x---------------|--------x---------------|--0--x--0-----x--2--2--2--2--2--2--2--|
D|--0-----x--0-------0----|--------x---------------|-----x--------x--2--2--2--2--2--2--2--|
A|--------x---------------|--2-----x--2-------2----|-----x--------x-----0--0--0--0--0--0--|
E|------------------------|------------------------|--3-----3-----------------------------|


Outro TAB:
E|--0--2----0--2----0----|--0--2----0--2----0------0h2--|
B|--3--3----3--3----3----|--3--3----3--3----3------3----|
G|--2--2----2--2----2----|--0--0----0--0----0------2----|
D|--0--0----0--0----0----|--0--0----0--0----0------0----|
A|-----------------------|--2--2------------2-----------|
E|-----------------------|------------------------------|


Chords:


















Chords and lyrics: http://tabs.ultimate-guitar.com/s/silent_sanctuary/bumalik_ka_na_sakin_ver2_crd.htm

Chord Sequence: 

Verse:  D  Bm  G  A  -  D  Bm  G  A
Pre-Chorus:  G  A  G  A
Chorus:  D  Bm  G  A  -  D  Bm  G  A  -  G  A
Interlude:  D  Bm  G  A
Verse 2:  D  Bm  G  A  -  D  Bm  G  A
Pre-Chorus:  G  A  G  A
Chorus:  D  Bm  G  A  -  D  Bm  G  A
Interlude (solo):  D  Bm  G  A  -  D  Bm  G  A
Bridge:  Bm  G   Bm  G - A
Chorus: D  Bm  G  A  -  D  Bm  G  A  -  D  Bm  G  A  -  D  Bm  G  A  -  D  Bm  G  A  -  D  Bm  G  A  -  G  A  A
Outro:  D  Bm  D

Strumming Pattern 1:
D  D  U  U  D U

Strumming Pattern 2:
D  D  (D)mute  D  D  D  (D)mute

Video:

No comments:

Post a Comment