Translate

Friday, December 5, 2014

Sa'yo - SIlent Sactuary (TAB/Chords/Sequence)

Tuning: Standard
Capo: 1st fret 


Intro TAB:
E|-------------------7--7-----------------------------7--7--7/9-----|--
B|-----3/5--5--7--7--7--7--7--9---------3/5--5--7--7--7--7-------9--|--
G|-----2-4--4--4--4-----------9---------2-4--4--4--4-------------9--|--
D|------------------------------------------------------------------|--
A|----------------------------0----------------------------------0--|--
E|--0--------------------------------0------------------------------|--


Outro TAB:
E|--------------9--9-------------------------9--9--9/11------|--
B|--7--7--9--9--9--9--9--11------7--7--9--9--9--9--------11--|--
G|--6--6--6--6-----------11------6--6--6--6--------------11--|--
D|-----------------------------------------------------------|--
A|-----------------------------------------------------------|--
E|-----------------------------------------------------------|--


Sequence:

Intro

Verse 1: E Asus2 E Asus2 E Asus2 E Asus2 

Pre-chorus: C#m A F#m C#m A F#m B 

Chorus: A E F#m C#m A E - G#7 C#m C#m F#m B 

Interlude (same as intro)

Verse 2: E Asus2 E Asus2 

Pre-chorus: C#m A F#m C#m A B 

Chorus: A E F#m C#m A E - G#7 C#m C#m F#m B 

Bridge (mute): C#m G#m C#m G#m F#m G#m Am D B C# 

Chorus: Bsus2 F# G#m (pause) D#m Bsus2 F# - A#

D#m D#m Bsus2 F# Busus2 F# Bsus2 G#m C# 

Outro


Chords:






















Lyrics & Chords:

Intro:

Verse:
E                                   Asus2
Minsan Oo Minsan hindi
E                                       Asus2
Minsan Tama Minsan Mali
E                       Asus2
Umaabante Umaatras
E                                Asus2
Kilos mong namimintas

Pre-Chorus:
                      C#m            A
Kung Tunay nga ang Pag ibig mo
                 F#m      C#m
Kaya mo bang Isigaw
          A               F#m      B
Iparating sa Mundo

Chorus:
           A                    E
Tumingin Saking Mata
           F#m          C#m
Magtapat ng Nadarama
           A                    E-G#7
di Gusto ika’y Mawala
                 C#m            C#m
Dahil handa akong ibigin ka
                F#m      
kung maging tayo
      B                          
‘Sayo Lang ang Puso ko’

Interlude: Same as Intro

Verse:
E                                     Asus2
Walang ibang Tatanggapin
E                       Asus2
Ikaw at ikaw parin

Pre-chorus:
C#m                    A
May gulo ba sayong isipan
F#m                  C#m
Di tugma sa nararamdaman
                   C#m                 A         B
kung tunay nga ang pag ibig mo

Chorus:

          A                   E
Tumingin Saking Mata
           F#m          C#m
Magtapat ng Nadarama
           A                    E-G#7
di Gusto ika’y Mawala
                C#m           C#m
Dahil handa akong ibigin ka
               F#m         B
kung maging tayo

Bridge :

C#m                   G#m
Kailangan ba kitang iwasan
C#m                   G#m
sa twing lalapit may paalam
F#m                  G#m
ibang anyo sa karamihan
      Am                     D                   B     C#
iba rin pag tayo, iba rin pag tayo lang

Chorus:
            Bsus2            F#
Tumingin Saking Mata
           G#m (pause)       D#m
Magtapat ng Nadarama
          Bsus2              F# - A#
di Gusto ika’y Mawala
                D#m          D#m
Dahil handa akong ibigin ka
               Bsus2        F#
kung maging tayo

(Kung maging tayo)
                Bsus2        F#
Kung maging tayo

(Kung maging tayo)
               Bsus2
Kung Maging Tayo
      G#m               C#      
‘Sayo Lang ang Puso ko’

Outro:


Video Tutorial:

3 comments: