Translate

Wednesday, September 10, 2014

Kahit Maputi Na Ang Buhok Ko - Noel Cabangon (TAB, Chords, Sequence)

Tuning: Standard
Capo: 1st Fret


Intro TAB:
E|--------x--5-------7--7h9---7--5--7--5----|--------x--5-------7---|
B|--9-----T--5-------7--7-----7--5----------|--9-----T--5-------7---|
G|--9-----A-----6/8-------------------------|--9-----A-----6/8------|
D|-----9--P---------------------------------|-----9--P--------------|
A|--------x---------------------------------|--------x--------------|
E|--0-----x--0-------------------0----------|--0-----x--0-----------|


Fingerpicking Pattern 1 (chords: E - G#m - G#7 -  F# - A#m - A#7):
E|--------x-----------x--|--
B|-----0--x--------0--x--|--
G|-----0--x--------0--x--|--
D|-----0--x-----0-----x--|--
A|--------x-----------x--|--
E|--0-----x--0--------x--|--


Fingerpicking Pattern 2 (chords: Asus2 - C#m - E7 - Bsus2 - D#m - F#7):
E|--------x-----------x--|--
B|-----0--x--------0--x--|--
G|-----0--x--------0--x--|--
D|-----0--x-----0-----x--|-- 
A|--0-----x--0--------x--|--
E|--------x-----------x--|--


Fingerpicking Pattern 3 (chords: B9 - C#9):
E|-----0--x--------0--x--|--
B|-----0--x--------0--x--|--
G|-----0--x-----0-----x--|--
D|--------x-----------x--|--
A|--0-----x--0--------x--|--
E|--------x-----------x--|--


End of refrain 1 (ER 1):
E|-----4--x-----4--x-----x-----x--2--x--2--|--
B|--7-----x--6-----x--2--x--4--x--2--x--2--|--
G|--4-----x--4-----x--2--x--4--x--2--x--2--|--
D|--6-----x--6-----x--4--x--6--x--2--x-----|--
A|--4-----x--4-----x--4--x--6--x-----x--2--|--
E|--------x--------x-----x-----x-----x-----|--


End of refrain 2 (ER 2):
E|----6--x-----6--x------x-----x--4--x--4-----|--
B|--9----x---8----x---4--x--6--x--4--x--4-----|--
G|--6----x---6----x---4--x--6--x--4--x--4-----|--
D|--8----x---8----x---6--x--8--x--4--x--------|--
A|--6----x---6----x---6--x--8--x-----x--4-----|--
E|-------x--------x------x-----x-----x--------|--

E|-----6------x----6--x-----6--x------x-----x--4--x--4--|
B|---6-----6--x--9----x---8----x---4--x--6--x--4--x--4--|
G|---6--------x--6----x---6----x---4--x--6--x--4--x--4--|
D|------------x--8----x---8----x---6--x--8--x--4--x-----|
A|------------x--6----x---6----x---6--x--8--x-----x--4--|
E|---6--------x-------x--------x------x-----x-----x-----|


Outro:
E|---------------------0----------------------|--
B|-------------------------------0------0-----|--
G|-----------1------1---------1------------1--|--
D|--------2------2---------2---------2--------|--
A|-----2--------------------------------------|--
E|--0-----------------------------------------|--

E|----------------------0-------------------0-----2--|
B|--------------------------------0------------0--2--|
G|------------1------1---------1-----1------------3--|
D|---------2------2---------2-----------2---------4--|
A|------2-----------------------------------------4--|
E|---0--------------------------------------------2--|


Chords:


























Chord sequence:
Verse:
E G#m Asus2 B9 E G#m Asus2 B9

Refrain:
G#m G#7 C#m E7 Asus2 B9 G#m E7 Asus2 B9 G#m C#7sus C#7 F#m G#m B9 B9

Verse 2:
E G#m Asus2 B9 E G#m Asus2 B9

Refrain:
G#m G#7 C#m E7 Asus2 B9 G#m E7 Asus2 B9 G#m C#7sus C#7 F#m G#m B9 B9

Key change: F#m G#m

Interlude: F# A#m Bsus2 C#9 F# A#m Bsus2 C#9

Refrain: A#m A#7 D#m F#7 Bsus2 C#9 A#m F#7 Bsus2 C#9 A#m D#7sus D#7 G#m A#m C#9 C#9

A#m D#7sus D#7 G#m A#m C#9

E - END


Intro tutorial video:

1 comment: