Translate

Wednesday, July 30, 2014

Halaga - Parokya ni Edgar (TAB, Chords, Strumming Patterns, Lyrics)

Tuning: Standard
Capo: No capo

Intro/Interlude/Outro guitar 1 tablature:
E|----------10--12--14--15--14--12--14------------|--
B|--10--12------------------------------15--------|--
G|------------------------------------------14----|--
D|------------------------------------------------|--
A|------------------------------------------------|--
E|------------------------------------------------|--

E|----------17--15--14--15--14----------------------------|--
B|--12--15----------------------15------15/17\15--14--15--|--
G|----------------------------------14--------------------|--
D|--------------------------------------------------------|--
A|--------------------------------------------------------|--

E|--------------------------------------------------------|--

E|----------10--12--14--15--14--12--14-----------------------------------|
B|--10--12------------------------------15-------------15/17\15--14--15--|
G|------------------------------------------14-----14--------------------|
D|-----------------------------------------------------------------------|
A|-----------------------------------------------------------------------|
E|-----------------------------------------------------------------------|


Intro/Interlude/Outro guitar 2 tablature:
E|--------------2--3--2--0--2---------|--
B|--------3--5-----------------3------|--
G|--2--4--------------------------2---|--
D|------------------------------------|--
A|------------------------------------|--
E|------------------------------------|--

E|--------------------------2--3--2--0--2--------|--
B|----3/5\3--2--3-----3--5-----------------3-----|--
G|-2---------------4--------------------------2--|--
D|-----------------------------------------------|--
A|-----------------------------------------------|--
E|-----------------------------------------------|--

E|--------5--3--2--3--2---------------------|
B|--0--3-----------------3-----3/5\3--2--3--|
G|--------------------------2---------------|
D|------------------------------------------|
A|------------------------------------------|
E|------------------------------------------|


Strumming Patterns:

s#1: (D) U D U (D) U D U (D) D U

s#2: D D U U D U

Chords used:




















Chord sequences:

Intro (strum pat #2): D  A  Bm  A  2x
Verse (strum pat #1): D  A  Bm  A  4x
Refrain (strum pat #2): G  D  A  2x - G  D  Bm  A
Verse (strum pat #1): D  A  Bm  A  4x
Refrain (strum pat #2): G  D  A  2x - G  D  Bm  A

Chorus (strum pat #2): D  G  Bm  A  4x

Interlude (strum pat #2): D  A  Bm  A  2x

Verse (strum pat #1): D  A  Bm  A  4x
Refrain (strum pat #2): G  D  A  2x - G  D  Bm  A
Verse (strum pat #1): D  A  Bm  A  4x
Refrain (strum pat #2): G  D  A  2x - G  D  Bm  A

Chorus (strum pat #2): D  G  Bm  A  4x

Solo (strum pat #2): D  G  Bm  A  2x

Bridge (strum pat #2 quiet): Bm  D  A  3x - G  D  Bm  A

Chorus (strum pat #2): D  G  Bm  A  4x

Outro (strum pat #2): D  A  Bm  A  2x - D

Lyrics and chords: http://bit.ly/1pLhk5F

Video Tutorial:

No comments:

Post a Comment