Translate

Monday, March 24, 2014

Story of My Life - One Direction (Sequence, TAB, Chords, Lyrics)

Tuning - Standard
Capo - 3rd Fret

Intro: Am(pat1) Am(pat1) C(pat1) 2x

Verse: Am(pat1) Am(pat1) C(pat2) 2x Am(pat1) Fmaj7(pat1) C(pat2) 2x

Pre-Chorus: F(pat1) G(pat1) Am(pat1) 3x G(pat2) G6 - G7

Chorus: C F Am(1/2) F(1/2) C 2x

Verse2: Am(pat1) Am(pat1) C(pat1) 2x Am(pat1) Fmaj7(pat1) C(pat1) 2x

Pre-Chorus: F(pat1) G(pat1) Am(pat1) 3x G(pat2) G6 - G7

Chorus: C F Am(1/2) F(1/2) C 2x

Bridge: Am G Fmaj7 G

Quiet Chorus: C F Am(1/2) - C

Chorus: C F Am(1/2) F(1/2) C - C F Am F C-end

Basic Strumming Pattern: DOWN | down | up | down | up |  down

Chords:


Am(pat1)
E|--------------------0-----------------|
B|--------1-----------------1-----------|
G|--2-----------2-----------------2-----|
D|-----2-----------2-----2-----------2--|
A|--0--------0--------0--------0--------|
E|--------------------------------------|


C(pat1)
E|----------------------------------------|-
B|----------1-----------------1-----------|-
G|--0-------------0--------0--------0-----|-
D|--0h2--2-----------2--3--------------3--|-
A|--3----------3-----------------3--------|-

E|----------------------------------------|-

E|--------------------------------------|
B|--------1-----------------1-----------|
G|-----0--------0--------0--------0-----|
D|--2--------------2--2--------------2--|
A|-----------3-----------------3--------|
E|--------------------------------------|


C(pat2)
E|----------------------------------------|-
B|----------1-----------------1-----------|-
G|--0-------------0--------0--------0-----|-
D|--0/2--2-----------2--3--------------3--|-
A|--3----------3-----------------3--------|-
E|----------------------------------------|-

E|----------------------------|
B|--------1-----------1-------|
G|-----0--------0----------0--|
D|--2--------------2--2-------|
A|-----------3----------------|
E|----------------------------|


Fmaj7(pat1)

E|--------------------0-----------------|
B|--------1-----------------1-----------|
G|--2-----------2-----------------2-----|
D|-----3-----------3-----3-----------3--|
A|--------------------------------------|
E|--1--------1--------1--------1--------|



Pre-Chorus F
E|--------------------|
B|--------1-----------|
G|--2-----------2-----|
D|-----3-----------3--|
A|--------------------|
E|--1--------1--------|


Pre-Chorus G
E|--------------------|
B|--------0-----------|
G|--0-----------0-----|
D|-----0-----------0--|
A|--------------------|
E|--3--------3--------|


Pre-Chorus G6 G7
E|---------------------------------------------------------------|
B|--0-----0-------------0-----0-------------0-----0-----------0--|
G|--0-----------0-------0-----------0-------0-----------0-----0--|
D|-----0-----------0-------2-----------2-------3-----------3-----|
A|---------------------------------------------------------------|
E|--3--------3----------3--------3----------3--------3--------3--|


Bridge:
E|--------------------------------------------------|
B|--1--0----------0----------1--0----------0--------|
G|--2-----2--0----0--2--0----2-----2--0----0--2--0--|
D|--2-------------0----------3-------------0--------|
A|--0-------------2----------0-------------2--------|
E|----------------3----------1-------------3--------|


1 comment:

  1. I can’t imagine focusing long enough to research; much less write this kind of article. You’ve outdone yourself with this material. This is great content.
    Manchester

    ReplyDelete