Translate

Thursday, February 6, 2014

Ikaw At Ako - TJ Monterde (TAB/Chords/Lyrics/Strumming)

Tuning: Standard
Capo: 4th Fret

Intro tablature:
E|------------------5-----------------------|
B|-----3--3/5--5/7-------5/7--5--3--5--5/7--|
G|--2---------------------------------------|
D|------------------------------------------|
A|------------------------------------------|
E|------------------------------------------|

E|------------------5--------------------------------|
B|-----3--3/5--5/7-------5/7--5--7--3----------------|
G|--2----------------------------------2/4\2---------|
D|--------------------------------------------2/4\2--|
A|---------------------------------------------------|
E|---------------------------------------------------|


After 1st chorus tablature:
E|--2--0------------2-------0--|
B|--------3--------------------|
G|-------------2/4-----0h2-----|
D|-----------------------------|
A|-----------------------------|
E|-----------------------------|


Basic strumming pattern: D U U D D U U D U D U (don't hesitate to try some of your own patterns)


Chords used:










Intro: Dsus2 - Dmaj9 - Bm11 - GM7sus2

     Dsus2           Dmaj9
Hawakan mo ang kamay ko

      Bm11       GM7sus2
Ng napakahigpit

Dsus2                  Dmaj9        Bm11
Pakinggan mo ang tinig ko

                      GM7sus2
‘Di mo ba pansin?

                Dsus2      Dmaj9
Ikaw at ako

               Bm11      Gsus2-GM7sus2
Tayo’y pinagtagpo

               Dsus2       Dmaj9
Ikaw at ako

                Bm11                  Gsus2       Gsus2-GM7sus2
Di na muling magkakalayo

          Dsus2          Dmaj9
Sa tuwing kasama ka

      Bm11               Gsus2-GM7sus2
Wala nang kulang pa

      Dsus2                         Dmaj9
Mahal na mahal kang talaga

    Bm11    Gsus2-GM7sus2
Tayo ay iisa

              Dsus2        Dmaj9
Ikaw at ako

              Bm11      Gsus2-GM7sus2
Tayo’y pinagtagpo

               Dsus2       Dmaj9
Ikaw at ako
 
                Bm11                    Gsus2-GM7sus2
‘Di na muling magkakalayo

    Dsus2/F#      Dsus2/G
Unos sa buhay natin

     Dsus2/F#   Bm11     Asus4
‘Di ko papansinin

       Dsus2/G  Dsus2/F#
Takda ng tadhana

   Bm11                 Asus4
Ikaw ang aking bituin

               Dsus2         Dmaj9
Ikaw at ako

               Bm11        Gsus2 - GM7sus2
Tayo’y pinagtagpo

              Dsus2       Dmaj9
Ikaw at ako

                Bm11                  Gsus2
‘Di na muling magkakalayo

               Dsus2       Dmaj9
Ikaw at ako

               Bm11         Gsus2 - GM7sus2
Tayo’y pinagtagpo

               Dsus2       Dmaj9
Ikaw at ako

               Bm11                   GM7sus2
‘Di na muling magkakalayo



Also watch our guitar cover plus lyric video:

2 comments: