Translate

Thursday, December 19, 2013

Kay Tagal Kitang Hinintay - Sponge Cola (TAB/Chords/Lyrics)

Tuning: Standard
Capo: N/A


Verse 1:

 Hawakan mo ang akin kamay
E|-----------------------------------------------|--
B|--------9--------9--------9--------9--------9--|--
G|-----9--------9--------9--------9--------9-----|--
D|-----------------------------------------------|--
A|--7--------7--------7--------7--------7--------|--
E|-----------------------------------------------|--

                              At tayong dalawa’y
E|----------------------------------------------------------------|--
B|------------12----------12----------12----------12----------12--|--
G|--------13----------13----------13----------13----------13------|--
D|----------------------------------------------------------------|--
A|--7/11----------11----------11----------11----------11----------|--
E|----------------------------------------------------------------|--

           Maghahasik nang 
E|-----------------------------------------------|--
B|--------5--------5--------5--------5--------5--|--
G|-----6--------6--------6--------6--------6-----|--
D|-----------------------------------------------|--
A|--4--------4--------4--------4--------4--------|--
E|-----------------------------------------------|--

  Kaligayahan
E|-----------------------------------------------|--
B|--------4--------4--------4--------4--------4--|--
G|-----4--------4--------4--------4--------4-----|--
D|-----------------------------------------------|--
A|--2--------2--------2--------2--------2--------|--
E|-----------------------------------------------|--

  Bitawn mong unang salita
E|-----------------------------------------------|--
B|--------2--------2--------2--------2--------2--|--
G|-----2--------2--------2--------2--------2-----|--
D|-----------------------------------------------|--
A|--0--------0--------0--------0--------0--------|--
E|-----------------------------------------------|--

                     Ako ay handa
E|-----------------------------------------------|--
B|--------0--------0--------0--------0--------0--|--
G|-----1--------1--------1--------1--------1-----|--
D|--2--------2--------2--------2--------2--------|--
A|-----------------------------------------------|--
E|-----------------------------------------------|--

  Nang tumapak sa lupa
E|-----------------------------------------------|--
B|--------5--------5--------5--------5--------5--|--
G|-----6--------6--------6--------6--------6-----|--
D|-----------------------------------------------|--
A|--4--------4--------4--------4--------4--------|--
E|-----------------------------------------------|--


E|-----------------------------------------------|--
B|--------4--------4--------4--------4--------4--|--
G|-----4--------4--------4--------4--------4-----|--
D|-----------------------------------------------|--
A|--2--------2--------2--------2--------2--------|--
E|-----------------------------------------------|--


Verse 2:

  Tapos na ang paghihintay
E|------------------------------------------------|--
B|---------9--------9--------9--------9--------9--|--
G|------9--------9--------9--------9--------9-----|--
D|------------------------------------------------|--
A|--2/7--------7--------7--------7--------7-------|--
E|------------------------------------------------|—-

                              Nandito ka na
E|----------------------------------------------------------------|--
B|------------12----------12----------12----------12----------12--|--
G|--------13----------13----------13----------13----------13------|--
D|----------------------------------------------------------------|--
A|--7/11----------11----------11----------11----------11----------|--
E|----------------------------------------------------------------|--

  Oras ay naiinip
E|-----------------------------------------------|--
B|--------5--------5--------5--------5--------5--|--
G|-----6--------6--------6--------6--------6-----|--
D|-----------------------------------------------|--
A|--4--------4--------4--------4--------4--------|--
E|-----------------------------------------------|--

  magdahan-dahan
E|-----------------------------------------------|--
B|--------4--------4--------4--------4--------4--|--
G|-----4--------4--------4--------4--------4-----|--
D|-----------------------------------------------|--
A|--2--------2--------2--------2--------2--------|--
E|-----------------------------------------------|--

  Sinasamsam bawat gunita
E|-----------------------------------------------|--
B|--------2--------2--------2--------2--------2--|--
G|-----2--------2--------2--------2--------2-----|--
D|-----------------------------------------------|--
A|--0--------0--------0--------0--------0--------|--
E|-----------------------------------------------|--

                      Na para bang
E|-----------------------------------------------|--
B|--------0--------0--------0--------0--------0--|--
G|-----1--------1--------1--------1--------1-----|--
D|--2--------2--------2--------2--------2--------|--
A|-----------------------------------------------|--
E|-----------------------------------------------|--

  Tayo’y Di na tatanda
E|-----------------------------------------------|--
B|--------5--------5--------5--------5--------5--|--
G|-----6--------6--------6--------6--------6-----|--
D|-----------------------------------------------|--
A|--4--------4--------4--------4--------4--------|--
E|-----------------------------------------------|--


E|-----------------------------------------------|--
B|--------4--------4--------4--------4--------4--|--
G|-----4--------4--------4--------4--------4-----|--
D|-----------------------------------------------|--
A|--2--------2--------2--------2--------2--------|--
E|-----------------------------------------------|--


Pre-Chorus:

  Ligaya noo’y nasa huli
E|-----------------------------------------------|--
B|--------2--------2--------2--------2--------2--|--
G|-----2--------2--------2--------2--------2-----|--
D|-----------------------------------------------|--
A|--0--------0--------0--------0--------0--------|--
E|-----------------------------------------------|--

                     
E|-----------------------------------------------|--
B|--------4--------4--------4--------4--------4--|--
G|-----4--------4--------4--------4--------4-----|--
D|-----------------------------------------------|--
A|--2--------2--------2--------2--------2--------|--
E|-----------------------------------------------|--

   Sambit na nang ‘yong mga labi
E|-----------------------------------------------|--
B|--------2--------2--------2--------2--------2--|--
G|-----2--------2--------2--------2--------2-----|--
D|-----------------------------------------------|--
A|--0--------0--------0--------0--------0--------|--
E|-----------------------------------------------|--


E|-------------------------------|
B|--------4--------4--------4----|
G|-----4--------4--------4-------|
D|-------------------------------|
A|--2--------2--------2----------|
E|-------------------------------|

Chorus:

E                          C#m
Parang isang panaginip

             A                 B
Ang muling mapagbigyan

C#m                         E
Tayo'y muling magkasama

        A                   B
Ang dati ay balewala


Interlude: E - G#m - C#m - B


Verse:

       E                              G#m
Nagkita rin and ating landas

              C#m                            B                       A
Wala ng iba akong hinihiling kundi ika'y padmasdan

                                      E
Mundo ko ay iyong niyanig

                  C#m                         B
Oh anong ligaya 'ka'y sumama sa akin.


Pre-Chorus:

A                            B
Nais ko lang humimbing

     A                    B
Sa saliw ng iyong tinig


Chorus:

E                         C#m
Parang isang panaginip

             A                 B
Ang muling mapagbigyan

C#m                         E
Tayo'y muling magkasama

        A                   E
Ang dati ay balewala

E                           G#m
Panatag na'ng kalooban ko

     A                       B
At ika'y kapilinig ko na

                A                   B
Oh kay tagal kitang hinintay

                A                   B
Oh kay tagal kitang hinintay


Interlude (solo): E - G#m - C#m - B - A - E - C#m - B

    A                        B
Ligaya mo'y nasa huli

       A                       B
Sambit ng iyong mga labi


Chorus:

E                          C#m
Parang isang panaginip

             A                 B
Ang muling mapagbigyan

C#m                        B
Tayo'y muling magkasama

        A                  B
Ang dati ay balewala

        A                   E
And dati ay balewala

                           C#m
Parang isang panaginip

             A                 B
Ang muling mapagbigyan

C#m                         E
Tayo'y muling magkasama

        A                  B
Ang dati ay balewala

    E                      C#m
Panatag na'ng kalooban ko

       A                     B
At ika'y kapiling ko na

                A                   B
Oh kay tagal kitang hinintay

                A                   B
Oh kay tagal kitang hinintay.

No comments:

Post a Comment