Translate

Monday, September 16, 2013

Kundiman - Silent Sanctuary TAB

Tuning: Standard
Capo: N/A

Intro TAB:

E|--------------------------------------------------------|
B|--------------------------------------------------7-----|
G|--------4----------6--4--6/8--------8----8-----8-----8--|
D|-----2----------4----------------9----------9-----------|
A|--4--------4/6----------------7-------------------------|
E|--------------------------------------------------------|

E|-----------------------------------------------------|
B|-----------------------------------------------------|
G|--------4----------6--4--6/8--------8-------8-----8--|
D|-----2----------4----------------9-----9-------9-----|
A|--4--------4/6----------------7----------------------|
E|-----------------------------------------------------|


1 comment:

  1. Can this tab be played throughout the whole song of "Kundiman" or are there chords as well? Thanks in advance!

    ReplyDelete