Translate

Friday, August 23, 2013

Magkabilang Mundo - Jireh Lim TAB/Chords/Lyrics

Tuning: Standard
Capo: 1st Fret

TAB:

First and Second verses (Played 2x)
E|--3-----5--3--|--3-----5--3--|--3-----5--3--|-----3--5--3--|
B|-----3--------|-----3--------|-----3--------|--4-----------|
G|--------------|--------------|--------------|--------------|
D|--------------|--------------|--------------|--------------|
A|--------------|--------------|--------------|--------------|
E|--------------|--------------|--------------|--------------|

Solo
E|-----10----------------------10-------------|-
B|--8------8--10--12----10--8------8--10--12--|-
G|--------------------------------------------|-
D|--------------------------------------------|-
A|--------------------------------------------|-
E|--------------------------------------------|-

E|---------10------------------------------|
B|--10--8------8--10--12--10--7/8\7--------|
G|-----------------------------------7--7--|
D|-----------------------------------------|
A|-----------------------------------------|
E|-----------------------------------------|


Chords Used:













Lyrics w/ Chords:

I.
                 G   
Magkalayong agwat
                Em7
Gagawin ang lahat
             Cadd9
Mapasayo lang ang
             Cm
Pag-ibig na alay sa yo
          G  
Ang awit na to
              Em7
Ay awit ko sa yo
                Cadd9
Sana ay madama
             Cm                                Pause
Magkabila man an gating mundo

II.
                G 
Kahit nasan ka man
                   Em7
Hindi ka papalitan
           Cadd9
Nag-iisa ka lang
              Cm
Kahit na langit ka at lupa ako
  G                            Em7
Ang bituin ay aking dadamhin
           Cadd9                        Cm
Pag naiisip ka sabay kayong nagniningning

Chorus:
Pause        G                           Dsus4
Dito ay umaga at diyan ay gabi
                Em7           Cadd9
Ang oras natin ay makasalungat
                     G
Ang aking hapunan ay
                  Dsus4
Iyong umagahan
             Em7          Cdd9
Ngunit kahit na anong mangyari
 Am (Pause)      Dsus4 (Pause)         
Balang araw ay makakapiling ka

G- Em7 – Cadd9 - Cm

III.
              G
Hihintayin kita
              Em7
Kahit nasan ka pa
                 Cadd9  
Di ako mawawala
               Cm
Kahit na may dumating pa
             G
Andito lang ako
        Em7
Iibig sa iyo
                         Cadd9
Hanggang nandiyan ka pa
                  Cm
Hanggat wala ka pag iba

Chorus:
                  G                         Dsus4
Dito ay umaga at diyan ay gabi
                Em7             Cadd9
Ang oras natin ay magkasalungat
                      G
Ang aking hapunan ay
                 Dsus4
Iyong umagahan
             Em7       Cadd9
Ngunit kahit na anong mangyari
Am                   Dsus4
Balang araw ay makakapiling ka

G – Em7 – Cadd9- Dsus4
G – Em7 – Cadd9 – Dsus4 Dsus4


                G (Pause)               Dsus4 (Pause)
Dito ay umaga at diyan ay gabi
                Em7             Cadd9
Ang oras natin ay magkasalungat
                      G
Ang aking hapunan ay
                  Dsus4
Iyong umagahan
              Em7       Cadd9
Ngunit kahit na anong mangyari
                 G                           Dsus4
Dito ay umaga at diyan ay gabi
                Em7             Cadd9
Ang oras natin ay magkasalungat
                       G
Ang aking hapunan ay
                  Dsus4
Iyong umagahan
             Em7       Cadd9
Ngunit kahit na anong mangyari

Am                   Dsus4            G
Balang araw ay makakapiling ka

6 comments:

  1. I want to learn the adlib part of the song. Can you post the tab of the adlib part of this song? Pleeeeaaassseee!!! :)

    ReplyDelete
    Replies
    1. brad pag naka hanap ka ng adlib brad o kya alam mna share mo naman saakin ha ? salmat

      Delete
  2. yes me too iwan the adlib part of the song please make the solo adlib of magkabilang mundo tnx

    ReplyDelete
  3. sir can i also request for the tutorial of HERO by enrique iglesias.. thanks in advance..

    ReplyDelete