Translate

Saturday, September 22, 2012

Pangarap Lang Kita - Parokya ni Edgar ft. Happee Sy TAB/Chords/Sequence

Capo: 1st fret
Tuning: Standard

/ = Slide up
p = Pull-off
b = Bend
r = Release bend
v = Down strum
^ = Up strum

Intro:

E#|-------------------------7p3-------|--
B#|-------------------3--0-------3/5--|--
G#|--------0--------------------------|--
D#|-----2-----2--2/4------------------|--
A#|--3-----------3/5------------------|--
E#|----------------------0------------|--

E#|----------------------0------------|--
B#|-------------------3-----7b8r7-----|--
G#|--------0-----------------------7--|--
D#|-----2-----2--2/4------------------|--
A#|--3-----------3/5------------------|--
E#|----------------------0------------|--

E#|-------------------------------------------------|--
B#|-------------------------------------------------|--
G#|--------0----------0--0-----0-----0-----0-----0--|--
D#|-----2-----2--2/4--------------------------0-----|--
A#|--3-----------3/5--------------------------------|--
E#|-------------------------3-----2-----0-----------|--

E#|--------------------------------0-----|
B#|-----------------------------------3--|
G#|--------0----------0-------0----------|
D#|-----2-----2--2/4-----4---------------|
A#|--3-----------3/5---------------------|
E#|---------------------------3----------|



Click image to view all chords:










Song sequence:

Verse:    A13x,  A2,  A12x,  A3,  A2

Chorus:   B12x,  B2,  B3

                 
          C1,    C2

Verse:    D13x,  D2,  D12x,  D3,  D2


Chorus:   C12x,  C2,  C3

                  
          C1,   C4

Parokya:  E12x,   E2,   E3

Happee:   E12x,   E2,   E3
Parokya   E12x,   E2,   E3
          
          E4,     E5
                   

A1                                   
(Cmaj7 D' Em)               ^  v  v  ^  v  ^   
E#|-------------------------0--0--0--0--0--0--|--
B#|-------------------3--0--0--0--0--0--0--0--|--
G#|--------0-------------0--0--0--0--0--0--0--|--
D#|-----2-----2--2/4--------2--2--2--2--2--2--|--
A#|--3-----------3/5-----2--2--2--2--2--2--2--|--
E#|-------------------------0--0--0--0--0--0--|--



A2
(Cmaj7 D' G)                   ^  v  v  ^  v  ^
E#|----------------------------3--3--3--3--3--3--|--
B#|----------------------------3--3--3--3--3--3--|--
G#|--------0----------0-----0--0--0--0--0--0--0--|--
D#|-----2-----2--2/4-----4--0--0--0--0--0--0--0--|--
A#|--3-----------3/5-----------2--2--2--2--2--2--|--
E#|-------------------------3--3--3--3--3--3--3--|--



A3
(Cmaj7 D' *) 
E#|-------------------------------------------------|--
B#|-------------------------------------------------|--
G#|--------0----------0--0-----0-----0-----0-----0--|--
D#|-----2-----2--2/4--------------------------0-----|--
A#|--3-----------3/5--------------------------------|--
E#|-------------------------3-----2-----0-----------|--



B1
(Cmaj7 D' Em)
        v  ^       v  ^     ^  v  v  ^  v  ^
E#|-----0--0-------0--0-----0--0--0--0--0--0--|--
B#|-----0--0-------0--0-----0--0--0--0--0--0--|--
G#|-----0--0-------0--0-----0--0--0--0--0--0--|--
D#|-----2--2-------4--4-----2--2--2--2--2--2--|--
A#|--3--3--3--3/5--5--5--2--2--2--2--2--2--2--|--
E#|-------------------------0--0--0--0--0--0--|--



B2
(Cmaj7 D' *)
        v  ^       v        ^
E#|-----0--0-------0--------0--------------------------|--
B#|-----0--0-------0--------0--------------------------|--
G#|-----0--0-------0--------0-----0-----0-----0-----0--|--
D#|-----2--2-------4--------4--------------------0-----|--
A#|--3--3--3--3/5--5--------5--------------------------|--
E#|-----0--0-------0--------0--3-----2-----0-----------|--



B3
(Cmaj7 D' G Asus2)
        v  ^       v  ^    v  ^  v    v  ^  v  ^
E#|-----0--0-------0--0----3--3--3----0--0--0--0--|--
B#|-----0--0-------0--0----3--3--3----0--0--0--0--|--
G#|-----0--0-------0--0----0--0--0----2--2--2--2--|--
D#|-----2--2-------4--4----0--0--0----2--2--2--2--|--
A#|--3--3--3--3/5--5--5----2--2--2----0--0--0--0--|--
E#|-----0--0-------0--0----3--3--3----------------|--



C1
(D E F#m)
        v       v    v    ^  v  v  ^  v  ^
E#|-----2-------0----2----2--2--2--2--2--2--|--
B#|-----3-------0----2----2--2--2--2--2--2--|--
G#|-----2-------1----2----2--2--2--2--2--2--|--
D#|--0--0-------2----4----4--4--4--4--4--4--|--
A#|----------2--2----4----4--4--4--4--4--4--|--
E#|------------------2----2--2--2--2--2--2--|--



C2
(D E *)
        v       v      ^
E#|-----2-------0------0--------------------------|--
B#|-----3-------0------0--------------------------|--
G#|-----2-------1------1-----2-----2-----2-----2--|--
D#|--0--0-------2------2--------------------------|--
A#|----------2--2------2--0-----------------------|--
E#|-----------------------------4-----2-----0-----|--



C3
(D E Asus2)
        v       v    v    ^  v  v  ^  v  ^
E#|-----2-------0----0----0--0--0--0--0--0--|--
B#|-----3-------0----0----0--0--0--0--0--0--|--
G#|-----2-------1----2----2--2--2--2--2--2--|--
D#|--0----------2----2----2--2--2--2--2--2--|--
A#|----------2--2----0----0--0--0--0--0--0--|--
E#|-----------------------------------------|--



C4
(D E F# G#)
        v       v    v  ^  v    v  ^  v  ^
E#|-----2-------0----2--2--2----4--4--4--4--|--
B#|-----3-------0----2--2--2----4--4--4--4--|--
G#|-----2-------1----3--3--3----5--5--5--5--|--
D#|--0----------2----4--4--4----6--6--6--6--|--
A#|----------2--2----4--4--4----6--6--6--6--|--
E#|------------------2--2--2----4--4--4--4--|--



D1
(D E F#)                        ^  v  v  ^  v  ^ 
E#|-----------------------------2--2--2--2--2--2--|--
B#|--------3----------1----2----2--2--2--2--2--2--|--
G#|-----2-----2-------0----2----2--2--2--2--2--2--|--
D#|--0--------------------------4--4--4--4--4--4--|--
A#|----------------2-------4----4--4--4--4--4--4--|--
E#|-----------------------------2--2--2--2--2--2--|--



D2
(D E Asus2)                     ^  v  v  ^  v  ^
E#|-----------------------------0--0--0--0--0--0--|--
B#|--------3----------0----0----0--0--0--0--0--0--|--
G#|-----2-----2-------1----2----2--2--2--2--2--2--|--
D#|--0---------------------2----2--2--2--2--2--2--|--
A#|----------------2------------0--0--0--0--0--0--|--
E#|-----------------------------------------------|--



D3
(D E *)
E#|---------------------------------------------------|--
B#|--------3----------0----0--------------------------|--
G#|-----2-----2-------1----1-----2-----2-----2-----2--|--
D#|--0------------------------------------------------|--
A#|----------------2----------0-----------------------|--
E#|---------------------------------4-----2-----0-----|--



E1

(C# D# Fm')
     v  v    v  ^  v    ^     ^   v   v   ^   v   ^
E#|--4--4----6--6--6----8-----8---8---8---8---8---8---|--
B#|--6--6----8--8--8----9-----9---9---9---9---9---9---|--
G#|--6--6----8--8--8----10----10--10--10--10--10--10--|--
D#|--6--6----8--8--8----10----10--10--10--10--10--10--|--
A#|--4--4----6--6--6----8-----8---8---8---8---8---8---|--
E#|---------------------------------------------------|--



E2
(C# D# G# Gm Fm D#)
     v  v    v  ^  v  ^    v    v    v    v  
E#|--4--4----6--6--6--6----4----3----1----6--|--
B#|--6--6----8--8--8--8----4----3----1----8--|--
G#|--6--6----8--8--8--8----5----3----1----8--|--
D#|--6--6----8--8--8--8----6----5----3----8--|--
A#|--4--4----6--6--6--6----6----5----3----6--|--
E#|------------------------------------------|--



E3
(C# D# G#)
     v  v    v  ^  v    v    ^  v  v  ^  v  ^
E#|--4--4----6--6--6----4----4--4--4--4--4--4--|--
B#|--6--6----8--8--8----4----4--4--4--4--4--4--|--
G#|--6--6----8--8--8----5----5--5--5--5--5--5--|--
D#|--6--6----8--8--8----6----6--6--6--6--6--6--|--
A#|--4--4----6--6--6----6----6--6--6--6--6--6--|--
E#|--------------------------------------------|--



E4
(C# D# Fm)
     v  v    v  ^  v    ^    ^  v  v  ^  v  ^
E#|--4--4----6--6--6----1----1--1--1--1--1--1--|--
B#|--6--6----8--8--8----1----1--1--1--1--1--1--|--
G#|--6--6----8--8--8----1----1--1--1--1--1--1--|--
D#|--6--6----8--8--8----3----3--3--3--3--3--3--|--
A#|--4--4----6--6--6----3----3--3--3--3--3--3--|--
E#|--------------------------------------------|--



E5
(C# D# Fm)
     v  v    v  ^  v    v
E#|--4--4----6--6--6----1--|
B#|--6--6----8--8--8----1--|
G#|--6--6----8--8--8----1--|
D#|--6--6----8--8--8----3--|
A#|--4--4----6--6--6----3--|
E#|------------------------|



Intro Tutorial

4 comments:

  1. kuya may .gpx na file ka nito. yung sa guitar pro? penge naman o!

    ReplyDelete
  2. kung ok lang sana kuya gawan mo to ng video :) yung whole song po ^^

    ReplyDelete
  3. kuya! gawa naman po kyo ng full tutorial nito

    ReplyDelete