Translate

Friday, August 24, 2012

Walang Iba - Ezra Band Lead/Solo TAB

Tuning: Half-step down (Eb - Ab - Db - Gb - Bb - eb)
Capo: N/A

eb|--------------10--10--12---------|--15p14--12p10--8--7------|-
Bb|----8--10/12-------------(11)r10-|----------------------7/8-|-
Gb|-9-------------------------------|--------------------------|-
Db|---------------------------------|--------------------------|-
Ab|---------------------------------|--------------------------|-
Eb|---------------------------------|--------------------------|-


eb|---------------------|
Bb|---------------------|
Gb|--9--7\5--4/5--4-----|
Db|------------------5--|
Ab|---------------------|
Eb|---------------------|


No comments:

Post a Comment

Post a Comment