Translate

Tuesday, September 20, 2011

Gitara - Parokya ni Edgar TAB

Tuning: Standard
Capo: N/A 



Lesson1: Intro/Verses/Interludes/Exit:
e|-----------------------------------------------------------|
B|----3-----x---3----3---x------3-----x---3----3---x---------|
G|----2p0---x---2p0--2---x------2p0---x---2p0--2---x---------|
D|----------x------------x------------x------------x---------|
A|----------x------------x---0--2-----x---2--------x---------|
E|----3---------3--------------------------------------------|

e|--------------------------2h3--2-----0-----2---------------|
B|-----3----x---3----3--x---3----3--x--3-----3---------------|
G|-----2p0--x---2p0--2--x-----------x----(2)-----------------|
D|----------x-----------x---0-------x--0-----0---------------|
A|--0--3----x---3-------x-----------x------------------------|
E|-----------------------------------------------------------|


Lesson2: Refrain A:
e|--0-------0--0-------2--2-------2h3p2--2-------3--3------
B|--1---x---1--1---x---3--3---x---3------3---x---3--3---x--
G|------x----------x----------x--------------x----------x--
D|------x----------x---0------x---0----------x----------x--
A|--2---x---2------x----------x--------------x----------x--
E|-----------------------------------------------3---------

e|--2--3p2--0----------0-----------|
B|--3--3----0-------------0--------|
G|---------------0-----------0-----|
D|--0--0------------2-----------2--|
A|----------2----------------------|
E|---------------------------------|


Lesson3: Refrain B:
e|-----------------2--2-----2h3p2--2--3--3--2--3p2--0--------0-----------|
B|--1--1-----0--1--3-----3------------3--3--3--3----0-----------0--------|
G|-----------------2-----------------------------------0-----------0-----|
D|--------2--------0------------------------0-------------2-----------2--|
A|--0-----------------------------------------------2--------------------|
E|------------------------------------3----------------------------------|


Lesson4: Refrain C(transition to interlude):
e|--0--------------2--------2h3p2--------3--|
B|-----1-----0--1--3--3------------3--------|
G|-----------------2-----2------------2-----|
D|--------2--------0------------------------|
A|--0---------------------------------------|
E|------------------------------------------|


Lesson5: Refrain D(transition to solo):
e|--0--------------2--2-----2h3p2--2--3--3--
B|-----1-----0--1--3-----3------------3--3--
G|-----------------2------------------------
D|--------2--------0------------------------
A|--0---------------------------------------
E|------------------------------------3-----

e|--2--3p2--------------------0-------------0-----0----------2h3p2------|
B|--3--3----------------0----------------1-----1----------3---------3---|
G|-------------------0-----0----------0----------------2---------------2|
D|--0-------------2----------------2----------------0-------------------|
A|-------------2----------------0---------------------------------------|
E|----------0-----------------------------------------------------------|


Whole song sequence: 
Intro:     - Play Lesson1 3x
Verse:     - Play Lesson1 3x
Refrain:   - Play Lesson2 2x, Lesson3 1x, Lesson4 1x
Interlude: - Play Lesson1 2x
Verse2:    - Play Lesson1 2x
Refrain:   - Play Lesson2 1x, Lesson3 2x, Lesson4 1x
Interlude: - Play Lesson1 2x
Refrain:   - Play Lesson2 1x, Lesson3 1x, Lesson5 1x
Exit:      - Play Lesson1 2x  






Original: http://tabs.ultimate-guitar.com/p/parokya_ni_edgar/gitara_ver2_tab.htm

6 comments:

  1. sir parequest naman po nung SOLO (outro) part nyan. salamat

    ReplyDelete
    Replies
    1. Pre ito yung isa niya solo...
      http://boogieboy36.blogspot.com/2013/04/gitara-pne-solos-tutorials.html

      Delete
  2. pre thanks tlga, nkhanap n rin ako ng clean tabs..dami kasi naguupload na di kumpleto..ty!!!pde ba parequest ng ngiti,hirap kc icifra kc dlwa ung gitara...ty ulit

    ReplyDelete
  3. Buti na lng may video ka boss kc mali nsa refrain A mo.. Un kc una qng sinundan bago ung sa video..

    ReplyDelete